Bass Tab Bondan Prakoso & Fade 2 Black Tetap Semangat

Bookmark and Share
Fig1
G|-----------------------------------------------------------------------------------|
D|-----------------------------------------------------------------------------------|
A|--5-----------------------5---7----------------------------------------------------|
E|--------5-----6-----5-------------5---8---6---8---5--------------------------------|

Fig2
G|-----------------------------------------------------------------------------------|
D|-----------5--7--5----------------------5----------------------------5--7-5-7-9----|
A|--5--7--8-----------8-5-7-8-------5--7-----8--7-5-7-8-------5--7--8----------------|
E|----------------------------5--8----------------------6--8-------------------------|

G|-----------------------------------------------------------------------------------|
D|--7--5--------5--------------------------------------------------------------------|
A|--------8--7-----8--7-5-7-8--------------------------------------------------------|
E|-----------------------------------------------------------------------------------|

Fig3
G|-----------------------------------------------------------------------------------|
D|-----------5--7--5----------------------5----------------------------5--7-5-7-9----|
A|--5--7--8-----------8-5-7-8-------5--7-----8--7-5-7-8-------5--7--8----------------|
E|----------------------------5--8----------------------6--8-------------------------|

G|-----------------------------------------------------------------------------------|
D|--7--5--------5--------------------------------------------------------------------|
A|--------8--7-----8--7-----5--------------------------------------------------------|
E|-----------------------8-----------------------------------------------------------|

Fig4
G|-----------------------------------------------------------------------------------|
D|-----------5--7--5----------------------5----------------------------5--7-5-7-9----|
A|--5--7--8-----------8-5-7-8-------5--7-----8--7-5-7-8-------5--7--8----------------|
E|----------------------------5--8----------------------6--8-------------------------|

G|-----------------------------------------------------------------------------------|
D|--7--5-----------5---5-------------------------------------------------------------|
A|--------8--7-------8---8-7-5---5---------------------------------------------------|
E|-----------------------------8-----------------------------------------------------|

Fig5
G|-----------------------------------------------------------------------------------|
D|-------------------------------------------------8-----8-8-7---7-7---7-------------|
A|--5-5-5-5---5-----5----------------------------8-----8-------------7-----7-10-9-7--|
E|----------5-----5---8-6--5-5-5-0-5--0-5--6-6-6-------------------------------------|

G|-----------------------------------------------------------------------------------|
D|----------------7-5-----------------------------------8-8-8-7----------------------|
A|--5-5-5---5---5-----8-7-7-7---------------------8-8-8----------8-------------------|
E|--------5-------------------8-5---5-8-8-8-6-6-6-------------------5----------------|

Fig6
G|-----------------------------------------------------------------------------------|
D|-----------5--7--5----------------------5----------------------------5--7-5-7-9----|
A|--5--7--8-----------8-5-7-8-------5--7-----8--7-5-7-8-------5--7--8----------------|
E|----------------------------5--8----------------------6--8-------------------------|

G|-----------------------------------------------------------------------------------|
D|--7--7-7-5--5-5----------------5--5-5----------------------------------------------|
A|-----------------8--8-8-7--7-7--------8--8-8-7--7-7--------5-----------------------|
E|----------------------------------------------------8--8-8-------------------------|

Fig7
G|-----------------------------------------------------------------------------------|
D|-----------------------------------------------------------------------------------|
A|--5-----------------------5---7---------------8-7-5--------------------------------|
E|--------5-----6-----5--8----------5---8---6---------5----5-------------------------|

Fig8
G|-----------------------------------------------------------------------------------|
D|-----------5--7--5----------------------5----------------------------5--7-5-7-9----|
A|--5--7--8-----------8-5-7-8-------5--7-----8--7-5-7-8-------5--7--8----------------|
E|----------------------------5--8----------------------6--8-------------------------|

G|-----------------------------------------------------------------------------------|
D|--7--5--------5-5---5--------------------------------------------------------------|
A|--------8--7------7---7-7-5---5----------------------------------------------------|
E|----------------------------8------------------------------------------------------|

Fig9
G|-----------------------------------------------------------------------------------|
D|----------7-7---7---------7-7---7--------------------------------------------------|
A|--5-5-8-8-----8---5-5-8-8-----8-----------7-7---7---------7-7---7------------------|
E|----------------------------------5-5-8-8-----8---5-5-8-8-----8--------------------|

G|-----------------------------------------------------------------------------------|
D|-----------------------------------------------------------------------------------|
A|------5-5-8-8-5-8-----5-5-8-8-5-8---------7-7---7---------7-7---7------------------|
E|--6-6-------------6-6-------------5-5-8-8-----8---5-5-8-8-----8--------------------|

Fig10
G|-----------------------------------------------------------------------------------|
D|--------------------------7-7-7-7-5-5-5-5------------------------------------------|
A|------------------------------------------8-8-8-8-7-7-7-7-5------------------------|
E|--5-5-5-5-5-5-5-5-5-5-5------------------------------------------------------------|

{ 0 komentar... Views All / Send Comment! }

Poskan Komentar